0
SECTION
2
HEADER
9
$INSUNITS
70
4
9
$ACADVER
1
AC1014
9
$HANDSEED
5
FFFF
0
ENDSEC
0
SECTION
2
TABLES
0
TABLE
2
VPORT
5
8
100
AcDbSymbolTable
0
ENDTAB
0
TABLE
2
LTYPE
5
5
100
AcDbSymbolTable
0
LTYPE
5
14
100
AcDbSymbolTableRecord
100
AcDbLinetypeTableRecord
2
BYBLOCK
70
0
0
LTYPE
5
15
100
AcDbSymbolTableRecord
100
AcDbLinetypeTableRecord
2
BYLAYER
70
0
0
ENDTAB
0
TABLE
2
LAYER
5
2
100
AcDbSymbolTable
70
2
0
LAYER
5
50
100
AcDbSymbolTableRecord
100
AcDbLayerTableRecord
2
0
70
0
6
CONTINUOUS
0
ENDTAB
0
TABLE
2
STYLE
5
3
100
AcDbSymbolTable
70
1
0
STYLE
5
11
100
AcDbSymbolTableRecord
100
AcDbTextStyleTableRecord
2
STANDARD
70
0
0
ENDTAB
0
TABLE
2
VIEW
5
6
100
AcDbSymbolTable
70
0
0
ENDTAB
0
TABLE
2
UCS
5
7
100
AcDbSymbolTable
70
0
0
ENDTAB
0
TABLE
2
APPID
5
9
100
AcDbSymbolTable
70
2
0
APPID
5
12
100
AcDbSymbolTableRecord
100
AcDbRegAppTableRecord
2
ACAD
70
0
0
ENDTAB
0
TABLE
2
DIMSTYLE
5
A
100
AcDbSymbolTable
70
1
0
ENDTAB
0
TABLE
2
BLOCK_RECORD
5
1
100
AcDbSymbolTable
70
1
0
BLOCK_RECORD
5
1F
100
AcDbSymbolTableRecord
100
AcDbBlockTableRecord
2
*MODEL_SPACE
0
BLOCK_RECORD
5
1B
100
AcDbSymbolTableRecord
100
AcDbBlockTableRecord
2
*PAPER_SPACE
0
ENDTAB
0
ENDSEC
0
SECTION
2
BLOCKS
0
BLOCK
5
20
100
AcDbEntity
100
AcDbBlockBegin
2
*MODEL_SPACE
0
ENDBLK
5
21
100
AcDbEntity
100
AcDbBlockEnd
0
BLOCK
5
1C
100
AcDbEntity
100
AcDbBlockBegin
2
*PAPER_SPACE
0
ENDBLK
5
1D
100
AcDbEntity
100
AcDbBlockEnd
0
ENDSEC
0
SECTION
2
ENTITIES
0
LWPOLYLINE
5
100
100
AcDbEntity
8
OUTER_PROFILES
100
AcDbPolyline
90
16
70
1
43
0.0
10
127.52127830978023
20
189.41541315109529
42
0.16708031733702955
10
106.92357259493042
20
196.49601650233654
10
3.627615577176122
20
196.4960165023366
42
0.16708031733702977
10
-16.970090137673736
20
189.41541315109532
42
0.083635097428503821
10
-43.340477342518156
20
160.63401300208164
42
0.14470455972204765
10
-48.724405913946725
20
142.42037724687148
10
-48.724405913946747
20
51.080353161041536
42
0.1447045597220481
10
-43.340477342518142
20
32.866717405831338
42
0.069549717694697297
10
-22.044433355747422
20
8.2751519722315958
42
0.18150893000315416
10
0
20
-2.2204460492503131e-14
10
110.55118817210652
20
-2.886579864025407e-14
42
0.18150893000315438
10
132.59562152785395
20
8.2751519722316047
42
0.069549717694697089
10
153.89166551462469
20
32.866717405831366
42
0.14470455972204754
10
159.27559408605327
20
51.080353161041501
10
159.27559408605327
20
142.42037724687151
42
0.14470455972204799
10
153.89166551462466
20
160.6340130020817
42
0.083635097428503821
0
CIRCLE
5
101
100
AcDbEntity
8
INTERIOR_PROFILES
100
AcDbCircle
10
-24.964704953597927
20
79.250365203956505
30
0
40
3.2500000000000018
210
0
220
0
230
-1
0
CIRCLE
5
102
100
AcDbEntity
8
INTERIOR_PROFILES
100
AcDbCircle
10
0.3659286584332655
20
185.79541530038125
30
0
40
5.9999999999999964
210
0
220
0
230
-1
0
CIRCLE
5
103
100
AcDbEntity
8
INTERIOR_PROFILES
100
AcDbCircle
10
39.09778077535924
20
142.77933561680965
30
0
40
5.9999999999999964
210
0
220
0
230
-1
0
CIRCLE
5
104
100
AcDbEntity
8
INTERIOR_PROFILES
100
AcDbCircle
10
-36.993399174054318
20
10.739400553612342
30
0
40
5.9999999999999964
210
0
220
0
230
-1
0
CIRCLE
5
105
100
AcDbEntity
8
INTERIOR_PROFILES
100
AcDbCircle
10
-115.5011199029131
20
10.739400553612342
30
0
40
5.9999999999999964
210
0
220
0
230
-1
0
CIRCLE
5
106
100
AcDbEntity
8
INTERIOR_PROFILES
100
AcDbCircle
10
4.9499317308065294
20
10.739400553612342
30
0
40
5.9999999999999964
210
0
220
0
230
-1
0
CIRCLE
5
107
100
AcDbEntity
8
INTERIOR_PROFILES
100
AcDbCircle
10
-55.275594086053275
20
61.750365203956505
30
0
40
3.2500000000000018
210
0
220
0
230
-1
0
CIRCLE
5
108
100
AcDbEntity
8
INTERIOR_PROFILES
100
AcDbCircle
10
-133.30580076117963
20
167.00907887163666
30
0
40
5.9999999999999964
210
0
220
0
230
-1
0
CIRCLE
5
109
100
AcDbEntity
8
INTERIOR_PROFILES
100
AcDbCircle
10
-150.43791172490154
20
52.375447721183065
30
0
40
5.9999999999999964
210
0
220
0
230
-1
0
CIRCLE
5
110
100
AcDbEntity
8
INTERIOR_PROFILES
100
AcDbCircle
10
-73.557788998052246
20
10.739400553612342
30
0
40
6.0000000000000053
210
0
220
0
230
-1
0
CIRCLE
5
111
100
AcDbEntity
8
INTERIOR_PROFILES
100
AcDbCircle
10
-55.275594086053268
20
34.750365203956513
30
0
40
3.6000000000000032
210
0
220
0
230
-1
0
CIRCLE
5
112
100
AcDbEntity
8
INTERIOR_PROFILES
100
AcDbCircle
10
22.754612589073115
20
167.00907887163663
30
0
40
6.0000000000000053
210
0
220
0
230
-1
0
CIRCLE
5
113
100
AcDbEntity
8
INTERIOR_PROFILES
100
AcDbCircle
10
-18.775594086053289
20
34.750365203956477
30
0
40
3.6000000000000032
210
0
220
0
230
-1
0
CIRCLE
5
114
100
AcDbEntity
8
INTERIOR_PROFILES
100
AcDbCircle
10
39.88672355279499
20
52.37544772118305
30
0
40
5.9999999999999964
210
0
220
0
230
-1
0
CIRCLE
5
115
100
AcDbEntity
8
INTERIOR_PROFILES
100
AcDbCircle
10
-91.77559408605326
20
34.750365203956513
30
0
40
3.5999999999999943
210
0
220
0
230
-1
0
CIRCLE
5
116
100
AcDbEntity
8
INTERIOR_PROFILES
100
AcDbCircle
10
-110.91711683053975
20
185.79541530038125
30
0
40
5.9999999999999964
210
0
220
0
230
-1
0
CIRCLE
5
117
100
AcDbEntity
8
INTERIOR_PROFILES
100
AcDbCircle
10
-135.7102606135459
20
29.257666186869926
30
0
40
5.9999999999999964
210
0
220
0
230
-1
0
CIRCLE
5
118
100
AcDbEntity
8
INTERIOR_PROFILES
100
AcDbCircle
10
-108.58499479785443
20
144.75036520395645
30
0
40
3.5999999999999943
210
0
220
0
230
-1
0
CIRCLE
5
119
100
AcDbEntity
8
INTERIOR_PROFILES
100
AcDbCircle
10
25.159072441439339
20
29.257666186869926
30
0
40
5.9999999999999964
210
0
220
0
230
-1
0
CIRCLE
5
120
100
AcDbEntity
8
INTERIOR_PROFILES
100
AcDbCircle
10
-149.64896894746576
20
142.77933561680968
30
0
40
5.9999999999999964
210
0
220
0
230
-1
0
CIRCLE
5
121
100
AcDbEntity
8
INTERIOR_PROFILES
100
AcDbCircle
10
-55.27559408605326
20
131.75036520395651
30
0
40
3.2500000000000018
210
0
220
0
230
-1
0
CIRCLE
5
122
100
AcDbEntity
8
INTERIOR_PROFILES
100
AcDbCircle
10
-85.586483218508604
20
114.25036520395651
30
0
40
3.2499999999999929
210
0
220
0
230
-1
0
CIRCLE
5
123
100
AcDbEntity
8
INTERIOR_PROFILES
100
AcDbCircle
10
-85.586483218508604
20
79.250365203956505
30
0
40
3.2499999999999929
210
0
220
0
230
-1
0
CIRCLE
5
124
100
AcDbEntity
8
INTERIOR_PROFILES
100
AcDbCircle
10
-1.9661933742520965
20
144.75036520395645
30
0
40
3.6000000000000032
210
0
220
0
230
-1
0
CIRCLE
5
125
100
AcDbEntity
8
INTERIOR_PROFILES
100
AcDbCircle
10
44.72440591394674
20
94.200365203956494
30
0
40
1.3499999999999979
210
0
220
0
230
-1
0
CIRCLE
5
126
100
AcDbEntity
8
INTERIOR_PROFILES
100
AcDbCircle
10
-142.57559408605329
20
94.200365203956494
30
0
40
1.3499999999999979
210
0
220
0
230
-1
0
CIRCLE
5
127
100
AcDbEntity
8
INTERIOR_PROFILES
100
AcDbCircle
10
0.72440591394673959
20
86.750365203956505
30
0
40
3.2500000000000018
210
0
220
0
230
-1
0
CIRCLE
5
128
100
AcDbEntity
8
INTERIOR_PROFILES
100
AcDbCircle
10
-24.964704953597927
20
114.25036520395651
30
0
40
3.2500000000000018
210
0
220
0
230
-1
0
CIRCLE
5
129
100
AcDbEntity
8
INTERIOR_PROFILES
100
AcDbCircle
10
-111.27559408605327
20
86.750365203956505
30
0
40
3.2500000000000107
210
0
220
0
230
-1
0
CIRCLE
5
130
100
AcDbEntity
8
INTERIOR_PROFILES
100
AcDbCircle
10
-155.27559408605327
20
94.200365203956494
30
0
40
1.3499999999999979
210
0
220
0
230
-1
0
CIRCLE
5
131
100
AcDbEntity
8
INTERIOR_PROFILES
100
AcDbCircle
10
32.024405913946751
20
94.200365203956494
30
0
40
1.3499999999999979
210
0
220
0
230
-1
0
CIRCLE
5
132
100
AcDbEntity
8
INTERIOR_PROFILES
100
AcDbCircle
10
-142.57559408605329
20
99.300365203956517
30
0
40
1.3499999999999979
210
0
220
0
230
-1
0
CIRCLE
5
133
100
AcDbEntity
8
INTERIOR_PROFILES
100
AcDbCircle
10
44.72440591394674
20
99.300365203956517
30
0
40
1.3499999999999979
210
0
220
0
230
-1
0
CIRCLE
5
134
100
AcDbEntity
8
INTERIOR_PROFILES
100
AcDbCircle
10
-111.27559408605327
20
106.75036520395651
30
0
40
3.2500000000000107
210
0
220
0
230
-1
0
CIRCLE
5
135
100
AcDbEntity
8
INTERIOR_PROFILES
100
AcDbCircle
10
-155.27559408605327
20
99.300365203956517
30
0
40
1.3499999999999979
210
0
220
0
230
-1
0
CIRCLE
5
136
100
AcDbEntity
8
INTERIOR_PROFILES
100
AcDbCircle
10
32.024405913946751
20
99.300365203956517
30
0
40
1.3499999999999979
210
0
220
0
230
-1
0
CIRCLE
5
137
100
AcDbEntity
8
INTERIOR_PROFILES
100
AcDbCircle
10
0.72440591394673959
20
106.75036520395651
30
0
40
3.2500000000000018
210
0
220
0
230
-1
0
ENDSEC
0
SECTION
2
OBJECTS
0
DICTIONARY
5
C
100
AcDbDictionary
3
ACAD_GROUP
350
D
3
ACAD_MLINESTYLE
350
17
0
DICTIONARY
5
D
100
AcDbDictionary
0
DICTIONARY
5
1A
330
C
100
AcDbDictionary
0
DICTIONARY
5
17
100
AcDbDictionary
0
ENDSEC
0
EOF
